“So What” Chords by Miles Davis.

In Chords on May 25, 2012 at 11:47 pm
Song - "So What" by Miles Davis.
__________________________________________________________________
e|----------------------7---5-------------------------7---5-------
B|----------------------8---6-------------------------8---6-------
G|----------------------7---5-------------------------7---5-------  TO NEXT LINE
D|----------------------7---5-------------------------7---5-------
A|--5-------5-7---5-----7---5-----5-------5-7---5-----7---5-------
E|----5-7-8-----8-------------------5-7-8-----8---5---------------

e|----------------------7---5-------------------------7---5------|
B|----------------------8---6-------------------------8---6------|
G|----------------------7---5-------------------------7---5------|  REPEAT FROM START
D|----------------------7---5-------------------------7---5------|  THEN NEXT LICK
A|--5-------5-7---5-----7---5-----6/7-6/7-6/7---5-----7---5------|
E|----5-7-8-----8---------------------------------5--------------|
__________________________________________________________________
e|----------------------8---6-------------------------8---6-------
B|----------------------9---7-------------------------9---7-------
G|----------------------8---6-------------------------8---6-------  TO NEXT LINE
D|----------------------8---6-------------------------8---6-------
A|--6-------6-8---6-----8---6-----6-------6-8---6-----8---6-------
E|----6-8-9-----9-------------------6-8-9-----9---6---------------

e|----------------------8---6-------------------------8---6------|
B|----------------------9---7-------------------------9---7------|
G|----------------------8---6-------------------------8---6------|
D|----------------------8---6-------------------------8---6------|
A|--6-------6-8---6-----8---6-----7/8-7/8-7/8---6-----8---6------|
E|----6-8-9-----9---------------------------------6--------------|
__________________________________________________________________
e|----------------------7---5-------------------------7---5-------
B|----------------------8---6-------------------------8---6-------
G|----------------------7---5-------------------------7---5-------  TO NEXT LINE
D|----------------------7---5-------------------------7---5-------
A|--5-------5-7---5-----7---5-----5-------5-7---5-----7---5-------
E|----5-7-8-----8-------------------5-7-8-----8---5---------------

e|----------------------7---5-------------------------7---5------|
B|----------------------8---6-------------------------8---6------|
G|----------------------7---5-------------------------7---5------|
D|----------------------7---5-------------------------7---5------|
A|--5-------5-7---5-----7---5-----6/7-6/7-6/7---5-----7---5------|
E|----5-7-8-----8---------------------------------5--------------|

THEN SOLO OVER D DORIAN:
Dm x 8 Bars
Dm x 8 Bars
Eb x 8 Bars
Dm x 8 Bars
Advertisements

Leave a Reply

Fill in your details below or click an icon to log in:

WordPress.com Logo

You are commenting using your WordPress.com account. Log Out / Change )

Twitter picture

You are commenting using your Twitter account. Log Out / Change )

Facebook photo

You are commenting using your Facebook account. Log Out / Change )

Google+ photo

You are commenting using your Google+ account. Log Out / Change )

Connecting to %s

%d bloggers like this: